Friday, October 3, 2014

Chord and Lyrics To Be With You - Mr. Big

 Mr. Big
Chord and Lyrics To Be With You - Mr. Big 
 
Tone: D
  
1st Part:

C#m               E
  Hold on little girl
  A9               E
Show me what he's done to you
C#m               E
 Stand up little girl
    A9                E
A broken heart can't be that bad
     A9                    E
When it's through, it's through
 A9                  E
Fate will twist the both of you
    D
So come on baby, come on over
 B9
Let me be the one to show you

Chorus:

E                A9       B9      E
I'm the one who wants to be with you
 E             A9          B9      E
Deep inside I hope you'll feel it too
 E           A9       B9         E
Waited on a line of greens and blues
 E              A9      B9      E
Just to be the next to be with you


Repeat 1st Part:

C#m              E
  Build up your confidence
    A9            E
So you can be on top for once
 C#m          E
Wake up! Who cares about
 A9               E
Little boys that talk to much
   A9             E
I seen it all go down
      A9              E
Your game of love was all rained out
    D
So come on baby, come on over
 B9
Let me be the one to hold you


Repeat Chorus:

E                A9       B9      E
I'm the one who wants to be with you
 E             A9          B9      E
Deep inside I hope you'll feel it too
 E           A9       B9         E
Waited on a line of greens and blues
 E              A9      B9      E
Just to be the next to be with you


2nd Part:

A9
 Why be alone
            C#m
When we can be together baby
 G
You can make my life worthwhile

And I can make you start to smile


Solo: E  A9  B9  E
      E  A9  B9  E
      E  A9  B9  C#m
      E  A9  B9  E


1

E|----------------------------------------------------|
B|--------5-------------------------------------------|
G|-1--2/4---6--4----4---4----4------------------------|
D|-2--4/6---7--6----4---4h6--6------------------------|
A|----------------------------------------------------|
E|----------------------------------------------------|



2

E|---------------4--2h4p2p0---0---0-------------------|
B|--------5------5----------0-----0-------------------|
G|-1--2/4---6-----------------------------------------|
D|-2--4/6---7-----------------------------------------|
A|----------------------------------------------------|
E|-------------------------------------0--------------|



3

E|----------------------------------------------------|
B|--------5---------7---9---9-------------------------|
G|-1--2/4---6--4----8---9---9-------------------------|
D|-2--4/6---7--6----9---11--11------------------------|
A|----------------------------------------------------|
E|----------------------------------------------------|



4

E|----------------------------------------------------|
B|---------------12---10--9-10--12\-------------------|
G|------------9-----9---------------7/9---------------|
D|-------9-11---------------------------11------------|
A|-9/11-----------------------------------------------|
E|----------------------------------------------------|



5
                       H.N

E|-0--2h4p2p0---0------0------------------------------|
B|-0----------0--------0------------------------------|
G|---------------------------11/13~-------------------|
D|----------------------------------------------------|
A|----------------------------------------------------|
E|----------------------------------------------------|



Repeat 1st part:

** Repeat only the second section 
 
 A9                    E
When it's through, it's through
 A9                  E
Fate will twist the both of you
    D
So come on baby, come on over
 B9
Let me be the one to show you


Chorus Final:

G                C        D       G
I'm the one who wants to be with you
 G             C           D       G
Deep inside I hope you'll feel it too
 G           C        D          Em
Waited on a line of greens and blues
 G              C       D       G
Just to be the next to be with you


E                A9       B9      E
I'm the one who wants to be with you
 E             A9          B9      E
Deep inside I hope you'll feel it too
 E           A9       B9         C#m
Waited on a line of greens and blues
 E              A9      B9      E
Just to be the next to be with you
 E              A9      B9      E
Just to be the next to be with you
 
 
keywords :