Saturday, October 4, 2014

Chord and Lyrics Feel So Close - Calvin Harris

 Calvin Harris
Chord and Lyrics Feel So Close - Calvin Harris 
 
 
Tone: G
  
Am           Em                G                     C
 I feel so close to you right now it's a force field
Am           Em             G                    C
 I wear my heart upon my sleeve, like a big deal
Am                 Em             G                        C
 Your love pours down on me, surrounds me like a waterfall
Am                 Em               G
 And there's no stopping us right now

            C
I feel so close to you right now

(Guitar Riff):


E|---------------------------------------------------------------|
B|-----13--13--13--13---12--12--12--12--12-12-12-12--8-8-8-8-----|
G|---12--12--12--12---12--12--12--12---9--9--9--9---5-5-5-5------|
D|---------------------------------------------------------------|
A|---------------------------------------------------------------|
E|---------------------------------------------------------------| x6


Am           Em                G                     C
 I feel so close to you right now it's a force field
Am           Em             G                    C
 I wear my heart upon my sleeve, like a big deal
Am                 Em             G                        C
 Your love pours down on me, surrounds me like a waterfall
Am                 Em               G
 And there's no stopping us right now

            C
I feel so close to you right now

(Guitar Riff):



E|---------------------------------------------------------------|
B|-----13--13--13--13---12--12--12--12--12-12-12-12--8-8-8-8-----|
G|---12--12--12--12---12--12--12--12---9--9--9--9---5-5-5-5------|
D|---------------------------------------------------------------|
A|---------------------------------------------------------------|
E|---------------------------------------------------------------| x6



Am                 Em               G  C
 And there's no stopping us right now
Am                 Em               G  C
 And there's no stopping us right now
Am                 Em               G  C
 And there's no stopping us right now

           Am
I feel so close to you right now

(Guitar Riff):


E|---------------------------------------------------------------|
B|-----13--13--13--13---12--12--12--12--12-12-12-12--8-8-8-8-----|
G|---12--12--12--12---12--12--12--12---9--9--9--9---5-5-5-5------|
D|---------------------------------------------------------------|
A|---------------------------------------------------------------|
E|---------------------------------------------------------------| x4
 
 
keywords :