Saturday, October 4, 2014

Chord and Lyrics Radioactive - Imagine Dragons

 Imagine Dragons

Chord and Lyrics Radioactive - Imagine Dragons 
 
Tone: A
  

Introduce:

Am C G D Am 



E|-------------------------12-------------------------|
B|-------13-------15-------------15-------------------|
G|-12-14----12-14----12-14----14----------------------|
D|----------------------------------------------------|
A|----------------------------------------------------|
E|----------------------------------------------------|




E|----------------------------------------------------|
B|-------13-------15-------13-13----------------------|
G|-12-14----12-14----12-14-------14-------------------|
D|----------------------------------------------------|
A|----------------------------------------------------|
E|----------------------------------------------------|


5x



E|------8------8------8------8------8-----------------|
B|---10-----10-----10-----10-----10-------------------|
G|-9------9------9------9------9----------------------|
D|----------------------------------------------------|
A|----------------------------------------------------|
E|----------------------------------------------------|





E|------8------8------8------8--8---8---8-------------|
B|---10-----10-----10-----10----10--10--10------------|
G|-9------9------9------9-------9---9---9-------------|
D|----------------------------------------------------|
A|----------------------------------------------------|
E|----------------------------------------------------|


1st Part:

Am           C              G
  I'm waking up to ash and dust
            D                  Am
I wipe my brow and I sweat my rust
              C            G         
I'm breathing in the chemicals
Am             C           G                
  I'm breaking in, shaping up 
              D 
Then checking out on the prison bus
Am        C             G
  This is it, the apocalypse
  D
Whoa

Chorus:
           Am            C
I'm waking up, I feel it in my bones
  G                D
Enough to make my systems blow
 Am                     C
Welcome to the new age,   to the new age
 G                      D
Welcome to the new age,   to the new age
Am   C     G              D
  Whoa-oh, whoa, I'm radioactive, radioactive
Am     C     G               D
  Whoa-oh, whoa, I'm radioactive, radioactive


Repeat 1st Part:

Am           C             G
I raise my flags, dye my clothes
          D                  Am
It's a revolution, I suppose
        C                         G
We're painted red to fit right in
D
 Whoa

Am             C           G                 
  I'm breaking in, shaping up,
              D                     Am 
Then checking out on the prison bus
        C             G
This is it, the apocalypse
  D
Whoa


Repeat Chorus:

           Am            C
I'm waking up, I feel it in my bones
  G                D
Enough to make my systems blow
 Am                     C
Welcome to the new age,   to the new age
 G                      D
Welcome to the new age,   to the new age
Am   C     G              D
  Whoa-oh, whoa, I'm radioactive, radioactive
Am     C     G               D
  Whoa-oh, whoa, I'm radioactive, radioactive


2nd Part:

Am          C    G           D
All systems go, sun hasn't died
Am          C        G             D
Deep in my bones, straight from inside


Repeat Chorus:

           Am            C
I'm waking up, I feel it in my bones
  G                D
Enough to make my systems blow
 Am                     C
Welcome to the new age,   to the new age
 G                      D
Welcome to the new age,   to the new age
Am   C     G              D
  Whoa-oh, whoa, I'm radioactive, radioactive
Am     C     G               D
  Whoa-oh, whoa, I'm radioactive, radioactive
 
 
 
keywords :