Saturday, October 4, 2014

Chord and Lyrics Highway To Hell - AC/DC

 AC/DC
Chord and Lyrics Highway To Hell - AC/DC 
 
Tono: D
  
(intro) 
 
(riff 1 - 2x) A ( D5/F# G5 ) (3x) D5/F# A

(1st Part) 
 
(riff 1) A ( D5/F# G5 ) (3x) D5/F# A

(1st Part) 
 
Living easy, livin' free
Season ticket, on a one, way ride
Asking nothing, leave me be
Taking everything in my stride

Don't need reason, don't need rhyme

(passagem) A ( D5/F# G5 ) (3x) D5/F#  E5
Ain't nothing I would rather do
Going down, party time
My friends are gonna be there too

(Chorus)

(riff 2) ( A D5 G5 D5 ) (3x)  A  D5
I'm on the highway to hell
Highway to hell
Highway to hell
I'm on the highway to hell

(riff 1 - 2x) A ( D5/F# G5 ) (3x) D5/F# A
No stop signs, speedin' limit
Nobody's gonna slow me down
Like a wheel, gonna spin it
Nobody's gonna mess me 'round

Hey Satan! Paid my dues
Playin' in a rockin' band

(passagem) A ( D5/F# G5 ) (3x) D5/F#  E5
Hey mama! Look at me
I'm on my way to the promise land

(riff 2) ( A D5 G5 D5 ) (3x)  A  D5
I'm on the highway to hell
Highway to hell
Highway to hell
I'm on the highway to hell

(riff 3 - 2x) preparação para o solo
( D D5/G D ) (2x)  G5 D

Don't stop me!

(base do solo) (riff 2) ( A D5 G5 D5 ) (3x)  A  D5

(solo)
(part 1)

-------5-------5-------5-------5-------5-----------
-----5-5-----5-5-----5-5-----5-5-----5-5-----------
-7b9-----7b9-----7b9-----7b9-----7b9---------------
---------------------------------------------------
---------------------------------------------------
---------------------------------------------------


(part 2)

-------------------------------5-------------------
--7br-5--------------------------5-----------------
--7br-5---7-5---------------5b-----4b5r4-2---------
--------7-----7-5r4-------7----------------4b5-----
--------------------5-3----------------------------
------------------------5----------------------5---


(part 3)

------------------5--------------------------------
-5---5b-------------5---------10-------------------
-5---5b---------------5---5/9----------------------
---7----7-5---5/7-------7--------------------------
------------7--------------------------------------
---------------------------------------------------


(riff 2) ( A D5 G5 D5 ) (3x)  A D5

(3x)
I'm on the highway to hell

I'm on the highway
I'm on the (highway to hell)

(3x)
I'm on the highway to hell (highway to hell)

Yeah I'm going down anyway
I'm on the highway to hell

(tips)

(pick scratch)

E|----------------------------|
B|----------------------------|
G|----------------------------|
D|-19/0----(reed scrapes)-----|
A|-19/0----(reed scrapes)-----|
E|-19/0----(reed scrapes)-----|


(frases finals)

(frase 1)               (frase 2)

-15b17--12----------|--12------------
-----------13--10~--|--13b-----------
--------------------|------14~-------
--------------------|----------------
--------------------|----------------
--------------------|----------------


(frase 3)

---------15------12------------------
-15brb17~--------15brb17-------------
-------------------------------------
-------------------------------------
-------------------------------------
------------------------------------- 
 
 
 
keywords :