Saturday, October 4, 2014

Chord and Lyrics 21 Guns - Green Day

 Green Day
Chord and Lyrics 21 Guns - Green Day 
 
Tone: F
  
Introduce: Dm  Bb  F  C  (2x)

(Riff 1)


   Dm   Bb   F    C
E|-1---------5------------------------------|
B|------3---------5-------------------------|
G|------------------------------------------|
D|-0---------3------------------------------|
A|------1---------3-------------------------|
E|------------------------------------------|


1st Part:

Dm          Bb               F           C
   Do you know what's worth fighting for
Dm            Bb        F         C
   When it's not worth dying for?
Dm          Bb         F         C
   Does it take your breath away
         Bb                 C
And you feel yourself suffocating?

(Riff 1)

Dm           Bb         F         C
   Does the pain weight out the pride?
Dm          Bb          F       C
   And you look for a place to hide?
Dm         Bb              F       C
   Did someone break your heart inside?
           Bb   C5
You're in ruins


1st Chorus:

F5     E5+       D5
One, twenty one guns
 C5           Bb5
Lay down your arms
 F5          C5   (Riff 2)
Give up the fight
F5     E5+       D5
One, twenty one guns
   C5         Bb5  F5           C5 (Riff 2)
Throw up your arms into the sky
        Bb5  F5  C5
You and I

(Riff 2)


E|----------------------------------------------------|
B|-/5-6-8~~\------------------------------------------|
G|----------------------------------------------------|
D|----------------------------------------------------|
A|----------------------------------------------------|
E|----------------------------------------------------|


2nd Part:

(Riff 1)

Dm             Bb     F           C
   When you're at the end of the road
Dm          Bb       F               C
   And you lost all sense of control
Dm            Bb           F               C
   And your thoughts have taken their toll
           Bb                             C
When your mind breaks the spirit of your soul

Dm       Bb              F      C
   Your faith walks on broken glass
Dm          Bb       F       C
   And the hangover doesn't pass
Dm           Bb     F       C
   Nothing's ever built to last
           Bb   C5
You're in ruins


2nd Chorus:

F5     E5+       D5
One, twenty one guns
 C5           Bb5
Lay down your arms
 F5          C5   (Riff 2)
Give up the fight
F5     E5+       D5
One, twenty one guns
   C5         Bb5  F5           C5  (Riff 2)
Throw up your arms into the sky
        Bb5  F5  C5
You and I


3rd Part:

(Riff 3)


E|----------------------------------------------------|
B|-/6---6---6---6-6-6---6---5---5---------------------|
G|----7---7---7-------5---5---5---5-------------------|
D|----------------------------------------------------|
A|----------------------------------------------------|
E|----------------------------------------------------|


D5           Bb5   F5          C5
   Did you try to live on your own
D5           Bb5             F5        A5
   When you burned down the house and home?
D5          Bb5        F5          A5
   Did you stand too close to the fire?
        Bb5
Like a liar looking for
    C5
Forgiveness from a stone


Solo: F5  E5+  D5  C5  Bb5  F5  C5
      F5  E5+  D5  C5  Bb5  F5  C5
      Bb5  F5  A5


E|----------------------------------------------------|
B|-------10--------10---------------------------------|
G|----10----10-12~----10~------10----9-9-10-----------|
D|--------------------------12----12--------12~-------|
A|-/8-------------------------------------------------|
E|----------------------------------------------------|



E|----------------------------------------------------|
B|----------------------------------------------------|
G|----7-----------/9~--9~--9-10-12~\------------------|
D|-/8---8-10-7----------------------------------------|
A|-------------8~-------------------------------------|
E|----------------------------------------------------|



E|----------------------------------------------------|
B|-------10--------10---------------------------------|
G|----10----10-12~----10~------10----9-9-10-----------|
D|--------------------------12----12--------12~-------|
A|-/8-------------------------------------------------|
E|----------------------------------------------------|



E|------------------------------10b-------------------|
B|----------------------------------------------------|
G|----7-----------/9~--9~--9-10-----------------------|
D|-/8---8-10-7----------------------------------------|
A|-------------8~-------------------------------------|
E|----------------------------------------------------|



E|----------------------------------------------------|
B|----------------------------------------------------|
G|----7-------------/9~--9~--9~--9-9\-----------------|
D|-/8---8---10-7--------------------------------------|
A|--------8------8~-----------------------------------|
E|----------------------------------------------------|



Riff 1 : Dm  Bb  F  C


Quarta Parte:

Dm            Bb      F            C
   When it's time to live and let die
Dm          Bb         F         C
   And you can't get another try

(Riff 1)

Dm           Bb           F         C
   Something inside this heart has died
           Bb
You're in ruins


3rd Chorus:

F5     E5+       D5
One, twenty one guns
 C5           Bb5
Lay down your arms
 F5          C5   (Riff 2)
Give up the fight
F5     E5+       D5
One, twenty one guns
   C5         Bb5  F5           C5  (Riff 2)
Throw up your arms into the sky

(Riff 4)


E|----------------------------------------------------|
B|----------------------------------------------------|
G|-------10----12----12----10----10----9----9---------|
D|----10----10----10----10----12----12---10---10------|
A|-/8-------------------------------------------------|
E|----------------------------------------------------|



E|----------------------------------------------------|
B|----------------------------------------------------|
G|----7-------------/9~--9~--9-10-12\-----------------|
D|-/8---8---10-7--------------------------------------|
A|--------8------8~-----------------------------------|
E|----------------------------------------------------|



E|----------------------------------------------------|
B|----------------------------------------------------|
G|-------10----12----12----10----10----9----9---------|
D|----10----10----10----10----12----12---10---10------|
A|-/8-------------------------------------------------|
E|----------------------------------------------------|



E|----------------------------------------------------|
B|----------------------------------------------------|
G|----7-------------/9~--9~--9-10-12\-----------------|
D|-/8---8---10-7--------------------------------------|
A|--------8------8~-----------------------------------|
E|----------------------------------------------------|



E|----------------------------------------------------|
B|----------------------------------------------------|
G|----7-------------/9--------------------------------|
D|-/8---8---10-7--------------------------------------|
A|--------8------8~-----------------------------------|
E|----------------------------------------------------|


F5     E5+       D5
One, twenty one guns
 C5           Bb5
Lay down your arms
 F5          C5
Give up the fight
F5     E5+       D5
One, twenty one guns
   C5         Bb5  F5           C5
Throw up your arms into the sky
        Bb5  F5  C5
You and I
 
 
 
keywords :