Friday, September 26, 2014

Chord and Lyrics Wake Me Up - Avicii

 Avicii 
Tone: D
  
Intro: Am  F/C  C/G  G
       Am  F/C  C/G  Em7


1st part:
 
Am            F/C             C/G
  Feeling my way through the darkness
Am        F/C          C/G
  Guided by a beating heart
Am         F/C            C/G
  I can't tell where the journey will end
Am       F/C            C/G
  But I know where it starts
Am             F/C      C/G
  They tell me I'm too young to understand
Am              F/C             C/G
  They say I'm caught up in a dream
Am                F/C          C/G
  Well life will pass me by if I don't open up my eyes
Am             F/C     C/G
  Well that's fine by me


Chorus:
           Am      F/C      C/G
So wake me up when it's all over
  G       Am   F/C     C/G
When I'm wiser and I'm older
Em7       Am         F/C       C/G        G
All this time I was finding myself, And I
Am        F/C        C/G  Em7
  Didn't know I was lost
           Am      F/C      C/G
So wake me up when it's all over
  G       Am   F/C     C/G
When I'm wiser and I'm older
Em7       Am         F/C       C/G        G
All this time I was finding myself, And I
Am        F/C        C/G  Em7
  Didn't know I was lost


Solo:


E|----------------------------------------------------|
B|---------1-----------1-1--1-3-1-3-3/5-1-------------|
G|-2-2-0-2---2--0-2-0---------------------------------|  (6x)
D|----------------------------------------------------|
A|----------------------------------------------------|
E|----------------------------------------------------|




E|------------8-----------8-8-8-10-8-10-10/12-8-------|
B|-10-10-8-10---10-8-10-8-----------------------------|
G|----------------------------------------------------|  (7x)
D|----------------------------------------------------|
A|----------------------------------------------------|
E|----------------------------------------------------|



Am         F/C          C/G
  I tried carrying the weight of the world
Am      F/C         C/G
  But I only have two hands
Am        F/C                C/G
  Hope I get the chance to travel the world
Am             F/C       C/G
  But I don't have any plans
Am            F/C             C/G
  I wish that I could stay forever this young
Am       F/C           C/G
  Not afraid to close my eyes
Am          F/C          C/G
  Life's a game made for everyone
Am     F/C          C/G
  And love is the prize


Chorus:
           Am      F/C      C/G
So wake me up when it's all over
  G       Am   F/C     C/G
When I'm wiser and I'm older
Em7       Am         F/C       C/G        G
All this time I was finding myself, And I
Am        F/C        C/G  Em7
  Didn't know I was lost
           Am      F/C      C/G
So wake me up when it's all over
  G       Am   F/C     C/G
When I'm wiser and I'm older
Em7       Am         F/C       C/G        G
All this time I was finding myself, And I
Am        F/C        C/G  Em7
  Didn't know I was lost
Am           F/C       C/G  G
  I didn't know I was lost
Am           F/C       C/G  Em7
  I didn't know I was lost
Am           F/C   C/G     G
  I didn't know I was lost
Am           F/C  C/G  Em7
  I didn't know

(Repeat Solo)
 
 
 
keywords :