Friday, September 26, 2014

Chord and Lyrics One Last Breath - Creed

 Creed

Chord and Lyrics One Last Breath - Creed
 
 
Tone: D
  

(intro)

(part 1)

E|-2---5---0h2---------------------------|
B|-------------3-------------------------|
G|---------------0-----------------------|
D|-0-0---0-------------------------------|
A|---------------------------------------|
E|---------------------------------------|


(part 2)

E|---------------------------------------|
B|---2-3-3h5---5p3p2h3-------------------|
G|---------------------------------------|
D|---------------------------------------|
A|-0---------0---------0-----------------|
E|---------------------------------------|


(part 3)

     Bm
E|---------------------------------------|
B|-----3---2h3---------------------------|
G|-4-----------4-------------------------|
D|---------------4-----------------------|
A|-2-2---2-------------------------------|
E|---------------------------------------|


(part 4)

     G
E|-------------3-2-----------------------|
B|---------3-----------------------------|
G|-----0-----2---------------------------|
D|---0---0-------------------------------|
A|---------------------------------------|
E|-3-------------------------------------|


(part 5)

E|-2---3---2-0h2p0----------------------|
B|-----------------3--------------------|
G|--------------------------------------|
D|-0-0---0------------------------------|
A|-------------------4------------------|
E|--------------------------------------|


(part 6)

    A
E|--------------------------------------|
B|-------2-2h3p2-0----------------------|
G|-----2---------0---0------------------|
D|---2-------------4--------------------|
A|-0------------------------------------|
E|--------------------------------------|


(part 7)

    B9
E|---------2----------------------------|
B|-------2---2--------------------------|
G|-----4-------4------------------------|
D|---4-----------0----------------------|
A|-2------------------------------------|
E|--------------------------------------|


(part 8)

     G
E|-----------3--------------------------|
B|---------3---3------------------------|
G|-------0-------0----------------------|
D|-----0-----------0--------------------|
A|--------------------------------------|
E|-3------------------------------------|


(1st part)

Please come now, I think I'm falling
I'm holding on to all I think is safe
It seems I've found the road to nowhere
And I'm trying to escape
I yelled back when I heard thunder
But I'm down to one last breath
And with it let me say
Let me say

(Chorus)
 
 D           F#7(11)
   Hold me now
     Bm               G
I'm six feet from the edge and I'm thinking
D         F#7(11)
   Maybe six feet
       Bm     G
Ain't so far down

(* Repeat 1st part intro and with lyrics)

I'm looking down now that it's over
Reflecting on all of my mistakes
I thought I found the road to somewhere
Somewhere in HIS grace
I cried out heaven save me
But I'm down to one last breath
And with it let me say
Let me say

(chorus power chords)

D5/A        F#5
   Hold me now
     B5               G5
I'm six feet from the edge and I'm thinking
D5/A        F#5
   Maybe six feet
       B5     G5
Ain't so far down

D5/A        F#5
   Hold me now
     B5               G5
I'm six feet from the edge and I'm thinking
D5/A        F#5
   Maybe six feet
       B5     G5   B5 G5
Ain't so far down
     B5     G5
I'm so far down

(2nd part)

(tips)

(o próximo passo é tocar o acorde de G 2x pra baixo,
e depois adicionar o dedo 1 na corda Sol, casa 2, montando um G9
e tocando 2x pra cima.
Montamos um D e tocamos: ↓ ↓ ↓↑ ↑↓ ↓↑↓↑
O próximo acorde é o A . Nele vamos tocar: ↓↓
Depois montamos o Bm e tocamos: ↓↓↑↑
Pra finalizar, montamos um G e  tocamos com no D: ↓ ↓ ↓↑ ↑↓ ↓↑↓↑ )

(passage)

E|-----------------------|
B|-----------------------|
G|--11---9---------------|
D|-----------------------|
A|--9----7---------------|
E|-----------------------|


(passage)
          G9 G   D
Sad eyes follow me
               A             Bm                 G
But I still believe there's something left for me
(passagem)          G9  G    D
  So please come stay with me
                  A             Bm                 G
'Cause I still believe there's something left for you and me
G
  For you and me
  For you and me

(repeat chorus)

(final)

(* just play the part 1, 3 and 8 of the intro)

Please come now, I think I'm falling
I'm holding on to all I think is safe
 
 
 
 
keywords :